ISO-10303-21;
HEADER;
/* Generated by software containing ST-Developer
 * from STEP Tools, Inc. (www.steptools.com) 
 */
/* OPTION: using custom schema-name function */

FILE_DESCRIPTION(
/* description */ (''),
/* implementation_level */ '2;1');

FILE_NAME(
/* name */ '_model1.stp',
/* time_stamp */ '2024-04-03T10:08:27+08:00',
/* author */ (''),
/* organization */ (''),
/* preprocessor_version */ 'ST-DEVELOPER v18.1',
/* originating_system */ 'SIEMENS PLM Software NX 1980',
/* authorisation */ '');

FILE_SCHEMA (('AUTOMOTIVE_DESIGN { 1 0 10303 214 3 1 1 1 }'));
ENDSEC;

DATA;
#10=SHAPE_REPRESENTATION_RELATIONSHIP('None',
'relationship between _model1-None and _model1-None',#22,#11);
#11=ADVANCED_BREP_SHAPE_REPRESENTATION('_model1-None',(#32),#245);
#12=SHAPE_DEFINITION_REPRESENTATION(#13,#22);
#13=PRODUCT_DEFINITION_SHAPE('','',#14);
#14=PRODUCT_DEFINITION(' ','',#16,#15);
#15=PRODUCT_DEFINITION_CONTEXT('part definition',#21,'design');
#16=PRODUCT_DEFINITION_FORMATION_WITH_SPECIFIED_SOURCE(' ',' ',#18,
 .NOT_KNOWN.);
#17=PRODUCT_RELATED_PRODUCT_CATEGORY('part','',(#18));
#18=PRODUCT('_model1','_model1',' ',(#19));
#19=PRODUCT_CONTEXT(' ',#21,'mechanical');
#20=APPLICATION_PROTOCOL_DEFINITION('international standard',
'automotive_design',2010,#21);
#21=APPLICATION_CONTEXT(
'core data for automotive mechanical design processes');
#22=SHAPE_REPRESENTATION('_model1-None',(#146),#245);
#23=PRESENTATION_LAYER_ASSIGNMENT('1','Layer 1',(#32));
#24=STYLED_ITEM('',(#25),#32);
#25=PRESENTATION_STYLE_ASSIGNMENT((#26));
#26=SURFACE_STYLE_USAGE(.BOTH.,#27);
#27=SURFACE_SIDE_STYLE('',(#28));
#28=SURFACE_STYLE_FILL_AREA(#29);
#29=FILL_AREA_STYLE('',(#30));
#30=FILL_AREA_STYLE_COLOUR('',#31);
#31=COLOUR_RGB('orange',1.,0.6,0.);
#32=MANIFOLD_SOLID_BREP('',#33);
#33=CLOSED_SHELL('',(#62,#63,#64,#65,#66,#67,#68,#69,#70,#71,#72));
#34=PLANE('',#159);
#35=PLANE('',#162);
#36=PLANE('',#164);
#37=CONICAL_SURFACE('',#154,0.999999999999998,45.);
#38=CONICAL_SURFACE('',#156,1.9,45.);
#39=CONICAL_SURFACE('',#166,1.25,45.);
#40=CYLINDRICAL_SURFACE('',#150,0.999999999999997);
#41=CYLINDRICAL_SURFACE('',#153,1.9);
#42=CYLINDRICAL_SURFACE('',#161,0.999999999999997);
#43=CYLINDRICAL_SURFACE('',#167,1.25);
#44=FACE_BOUND('',#77,.T.);
#45=FACE_BOUND('',#78,.T.);
#46=FACE_BOUND('',#79,.T.);
#47=FACE_BOUND('',#80,.T.);
#48=FACE_BOUND('',#81,.T.);
#49=FACE_BOUND('',#82,.T.);
#50=FACE_BOUND('',#83,.T.);
#51=FACE_BOUND('',#84,.T.);
#52=FACE_BOUND('',#85,.T.);
#53=FACE_BOUND('',#86,.T.);
#54=FACE_BOUND('',#87,.T.);
#55=FACE_BOUND('',#88,.T.);
#56=FACE_BOUND('',#89,.T.);
#57=FACE_BOUND('',#90,.T.);
#58=FACE_BOUND('',#92,.T.);
#59=FACE_BOUND('',#93,.T.);
#60=FACE_BOUND('',#94,.T.);
#61=FACE_BOUND('',#95,.T.);
#62=ADVANCED_FACE('',(#74),#73,.T.);
#63=ADVANCED_FACE('',(#44,#45),#40,.T.);
#64=ADVANCED_FACE('',(#46,#47),#41,.T.);
#65=ADVANCED_FACE('',(#48,#49),#37,.T.);
#66=ADVANCED_FACE('',(#50,#51),#38,.T.);
#67=ADVANCED_FACE('',(#52,#53),#34,.F.);
#68=ADVANCED_FACE('',(#54,#55),#42,.T.);
#69=ADVANCED_FACE('',(#56,#57),#35,.F.);
#70=ADVANCED_FACE('',(#75),#36,.T.);
#71=ADVANCED_FACE('',(#58,#59),#39,.T.);
#72=ADVANCED_FACE('',(#60,#61),#43,.T.);
#73=SPHERICAL_SURFACE('',#148,1.);
#74=FACE_OUTER_BOUND('',#76,.T.);
#75=FACE_OUTER_BOUND('',#91,.T.);
#76=EDGE_LOOP('',(#96));
#77=EDGE_LOOP('',(#97));
#78=EDGE_LOOP('',(#98));
#79=EDGE_LOOP('',(#99));
#80=EDGE_LOOP('',(#100));
#81=EDGE_LOOP('',(#101));
#82=EDGE_LOOP('',(#102));
#83=EDGE_LOOP('',(#103));
#84=EDGE_LOOP('',(#104));
#85=EDGE_LOOP('',(#105));
#86=EDGE_LOOP('',(#106));
#87=EDGE_LOOP('',(#107));
#88=EDGE_LOOP('',(#108));
#89=EDGE_LOOP('',(#109));
#90=EDGE_LOOP('',(#110));
#91=EDGE_LOOP('',(#111));
#92=EDGE_LOOP('',(#112));
#93=EDGE_LOOP('',(#113));
#94=EDGE_LOOP('',(#114));
#95=EDGE_LOOP('',(#115));
#96=ORIENTED_EDGE('',*,*,#126,.T.);
#97=ORIENTED_EDGE('',*,*,#127,.T.);
#98=ORIENTED_EDGE('',*,*,#126,.F.);
#99=ORIENTED_EDGE('',*,*,#128,.T.);
#100=ORIENTED_EDGE('',*,*,#129,.T.);
#101=ORIENTED_EDGE('',*,*,#128,.F.);
#102=ORIENTED_EDGE('',*,*,#127,.F.);
#103=ORIENTED_EDGE('',*,*,#130,.F.);
#104=ORIENTED_EDGE('',*,*,#129,.F.);
#105=ORIENTED_EDGE('',*,*,#131,.T.);
#106=ORIENTED_EDGE('',*,*,#132,.T.);
#107=ORIENTED_EDGE('',*,*,#133,.T.);
#108=ORIENTED_EDGE('',*,*,#132,.F.);
#109=ORIENTED_EDGE('',*,*,#130,.T.);
#110=ORIENTED_EDGE('',*,*,#133,.F.);
#111=ORIENTED_EDGE('',*,*,#134,.T.);
#112=ORIENTED_EDGE('',*,*,#134,.F.);
#113=ORIENTED_EDGE('',*,*,#135,.F.);
#114=ORIENTED_EDGE('',*,*,#131,.F.);
#115=ORIENTED_EDGE('',*,*,#135,.T.);
#116=VERTEX_POINT('',#214);
#117=VERTEX_POINT('',#217);
#118=VERTEX_POINT('',#220);
#119=VERTEX_POINT('',#222);
#120=VERTEX_POINT('',#226);
#121=VERTEX_POINT('',#229);
#122=VERTEX_POINT('',#231);
#123=VERTEX_POINT('',#234);
#124=VERTEX_POINT('',#238);
#125=VERTEX_POINT('',#241);
#126=EDGE_CURVE('',#116,#116,#136,.T.);
#127=EDGE_CURVE('',#117,#117,#137,.T.);
#128=EDGE_CURVE('',#118,#118,#138,.T.);
#129=EDGE_CURVE('',#119,#119,#139,.T.);
#130=EDGE_CURVE('',#120,#120,#140,.T.);
#131=EDGE_CURVE('',#121,#121,#141,.T.);
#132=EDGE_CURVE('',#122,#122,#142,.T.);
#133=EDGE_CURVE('',#123,#123,#143,.T.);
#134=EDGE_CURVE('',#124,#124,#144,.T.);
#135=EDGE_CURVE('',#125,#125,#145,.T.);
#136=CIRCLE('',#147,0.999999999999997);
#137=CIRCLE('',#149,0.999999999999997);
#138=CIRCLE('',#151,1.9);
#139=CIRCLE('',#152,1.9);
#140=CIRCLE('',#155,1.25);
#141=CIRCLE('',#157,1.25);
#142=CIRCLE('',#158,0.999999999999997);
#143=CIRCLE('',#160,0.999999999999997);
#144=CIRCLE('',#163,0.849999999999998);
#145=CIRCLE('',#165,1.25);
#146=AXIS2_PLACEMENT_3D('',#212,#168,#169);
#147=AXIS2_PLACEMENT_3D('',#213,#170,#171);
#148=AXIS2_PLACEMENT_3D('',#215,#172,#173);
#149=AXIS2_PLACEMENT_3D('',#216,#174,#175);
#150=AXIS2_PLACEMENT_3D('',#218,#176,#177);
#151=AXIS2_PLACEMENT_3D('',#219,#178,#179);
#152=AXIS2_PLACEMENT_3D('',#221,#180,#181);
#153=AXIS2_PLACEMENT_3D('',#223,#182,#183);
#154=AXIS2_PLACEMENT_3D('',#224,#184,#185);
#155=AXIS2_PLACEMENT_3D('',#225,#186,#187);
#156=AXIS2_PLACEMENT_3D('',#227,#188,#189);
#157=AXIS2_PLACEMENT_3D('',#228,#190,#191);
#158=AXIS2_PLACEMENT_3D('',#230,#192,#193);
#159=AXIS2_PLACEMENT_3D('',#232,#194,#195);
#160=AXIS2_PLACEMENT_3D('',#233,#196,#197);
#161=AXIS2_PLACEMENT_3D('',#235,#198,#199);
#162=AXIS2_PLACEMENT_3D('',#236,#200,#201);
#163=AXIS2_PLACEMENT_3D('',#237,#202,#203);
#164=AXIS2_PLACEMENT_3D('',#239,#204,#205);
#165=AXIS2_PLACEMENT_3D('',#240,#206,#207);
#166=AXIS2_PLACEMENT_3D('',#242,#208,#209);
#167=AXIS2_PLACEMENT_3D('',#243,#210,#211);
#168=DIRECTION('',(0.,0.,1.));
#169=DIRECTION('',(1.,0.,0.));
#170=DIRECTION('',(0.,1.,0.));
#171=DIRECTION('',(0.,0.,1.));
#172=DIRECTION('',(0.,1.,6.12323399573677E-17));
#173=DIRECTION('',(0.,0.,1.));
#174=DIRECTION('',(0.,1.,0.));
#175=DIRECTION('',(0.,0.,1.));
#176=DIRECTION('',(0.,1.,0.));
#177=DIRECTION('',(0.,0.,1.));
#178=DIRECTION('',(0.,-1.,0.));
#179=DIRECTION('',(0.,0.,1.));
#180=DIRECTION('',(0.,1.,0.));
#181=DIRECTION('',(0.,0.,-1.));
#182=DIRECTION('',(0.,1.,0.));
#183=DIRECTION('',(0.,0.,1.));
#184=DIRECTION('',(0.,-1.,0.));
#185=DIRECTION('',(0.,-3.46598097098263E-18,-1.));
#186=DIRECTION('',(0.,-1.,0.));
#187=DIRECTION('',(0.,0.,1.));
#188=DIRECTION('',(0.,1.,0.));
#189=DIRECTION('',(0.,-2.42400725258761E-17,1.));
#190=DIRECTION('',(0.,1.,0.));
#191=DIRECTION('',(0.,0.,-1.));
#192=DIRECTION('',(0.,-1.,0.));
#193=DIRECTION('',(0.,0.,1.));
#194=DIRECTION('',(0.,-1.,0.));
#195=DIRECTION('',(0.,0.,-1.));
#196=DIRECTION('',(0.,-1.,0.));
#197=DIRECTION('',(0.,0.,1.));
#198=DIRECTION('',(0.,1.,0.));
#199=DIRECTION('',(0.,0.,1.));
#200=DIRECTION('',(0.,1.,0.));
#201=DIRECTION('',(0.,0.,1.));
#202=DIRECTION('',(0.,-1.,0.));
#203=DIRECTION('',(0.,0.,-1.));
#204=DIRECTION('',(0.,-1.,0.));
#205=DIRECTION('',(0.,0.,-1.));
#206=DIRECTION('',(0.,1.,0.));
#207=DIRECTION('',(0.,0.,-1.));
#208=DIRECTION('',(0.,1.,0.));
#209=DIRECTION('',(0.,-5.37092911413542E-17,1.));
#210=DIRECTION('',(0.,1.,0.));
#211=DIRECTION('',(0.,0.,1.));
#212=CARTESIAN_POINT('',(0.,0.,0.));
#213=CARTESIAN_POINT('',(0.,12.,2.5912415610542E-15));
#214=CARTESIAN_POINT('',(0.,12.,1.));
#215=CARTESIAN_POINT('',(0.,12.,0.));
#216=CARTESIAN_POINT('',(0.,-5.,2.5912415610542E-15));
#217=CARTESIAN_POINT('',(0.,-5.,1.));
#218=CARTESIAN_POINT('',(0.,0.,2.5912415610542E-15));
#219=CARTESIAN_POINT('',(0.,-5.9,2.5912415610542E-15));
#220=CARTESIAN_POINT('',(0.,-5.9,1.9));
#221=CARTESIAN_POINT('',(0.,-9.85,2.5912415610542E-15));
#222=CARTESIAN_POINT('',(0.,-9.85,-1.9));
#223=CARTESIAN_POINT('',(0.,0.,2.5912415610542E-15));
#224=CARTESIAN_POINT('',(0.,-5.,2.5912415610542E-15));
#225=CARTESIAN_POINT('',(0.,-10.5,2.5912415610542E-15));
#226=CARTESIAN_POINT('',(0.,-10.5,1.25));
#227=CARTESIAN_POINT('',(0.,-9.85,2.5912415610542E-15));
#228=CARTESIAN_POINT('',(0.,-11.,2.5912415610542E-15));
#229=CARTESIAN_POINT('',(0.,-11.,-1.25));
#230=CARTESIAN_POINT('',(0.,-11.,2.5912415610542E-15));
#231=CARTESIAN_POINT('',(0.,-11.,1.));
#232=CARTESIAN_POINT('',(0.,-11.,2.));
#233=CARTESIAN_POINT('',(0.,-10.5,2.5912415610542E-15));
#234=CARTESIAN_POINT('',(0.,-10.5,1.));
#235=CARTESIAN_POINT('',(0.,-13.,2.5912415610542E-15));
#236=CARTESIAN_POINT('',(0.,-10.5,1.));
#237=CARTESIAN_POINT('',(0.,-13.,2.5912415610542E-15));
#238=CARTESIAN_POINT('',(0.,-13.,-0.849999999999996));
#239=CARTESIAN_POINT('',(0.,-13.,1.25));
#240=CARTESIAN_POINT('',(0.,-12.6,2.5912415610542E-15));
#241=CARTESIAN_POINT('',(0.,-12.6,-1.25));
#242=CARTESIAN_POINT('',(0.,-12.6,2.5912415610542E-15));
#243=CARTESIAN_POINT('',(0.,0.,2.5912415610542E-15));
#244=MECHANICAL_DESIGN_GEOMETRIC_PRESENTATION_REPRESENTATION('',(#24),#245);
#245=(
GEOMETRIC_REPRESENTATION_CONTEXT(3)
GLOBAL_UNCERTAINTY_ASSIGNED_CONTEXT((#246))
GLOBAL_UNIT_ASSIGNED_CONTEXT((#252,#248,#247))
REPRESENTATION_CONTEXT('_model1','TOP_LEVEL_ASSEMBLY_PART')
);
#246=UNCERTAINTY_MEASURE_WITH_UNIT(LENGTH_MEASURE(2.E-5),#252,
'DISTANCE_ACCURACY_VALUE','Maximum Tolerance applied to model');
#247=(
NAMED_UNIT(*)
SI_UNIT($,.STERADIAN.)
SOLID_ANGLE_UNIT()
);
#248=(
CONVERSION_BASED_UNIT('DEGREE',#250)
NAMED_UNIT(#249)
PLANE_ANGLE_UNIT()
);
#249=DIMENSIONAL_EXPONENTS(0.,0.,0.,0.,0.,0.,0.);
#250=PLANE_ANGLE_MEASURE_WITH_UNIT(PLANE_ANGLE_MEASURE(0.0174532925),#251);
#251=(
NAMED_UNIT(*)
PLANE_ANGLE_UNIT()
SI_UNIT($,.RADIAN.)
);
#252=(
LENGTH_UNIT()
NAMED_UNIT(*)
SI_UNIT(.MILLI.,.METRE.)
);
ENDSEC;
END-ISO-10303-21;
